giovedì 4 marzo 2010

tre colonne sul tappeto verde, metodi per roulette di Numeristitanus


permanenze reali del 28.2.2009

consideriamo i primi dodici numeri estratti

13.14.5.7.32.19.17.12.36.1.21.10


ora prendiamo il grafico del tappeto verde

e mettiamo i numeri estratti nella loro colonna naturale

prima colonna seconda colonna terza colonna

13-----------------------14-----------------------12
7--------------------------5-----------------------
19-----------------------17----------------------21
10-----------------------32-------------------------36
1--------------------------------------------------------

la colonna che contiene quattro numeri è quella vincente

in questo caso è la seconda colonna

vediamo di nuovo tutta la sequenza delle permanenze del 28.2.09

13.14.5.7.32.19.17.12.36.1.21.10 sono dodici numeri estratti dal croupier

al primo colpo esce 26 seconda colonna

ecco qui di seguito gli altri numeri estratti

26.12.15.9.3.27.22.20.9.5.20.35.34.33.15.15.19.12


vediamo un nuovo esempio su permanenze reali del 15.2.2009

consideriamo solo i primi dodici numeri estratti dal croupier

4.19.26.15.5.10.19.7.20.8.14.17

ora prendiamo il grafico del tappeto verde ed inseriamo i numeri estratti
nella loro colonna naturale

prima colonna ,...seconda colonna.....terza colonna

4...................26.....................15
19------------------5--------------
--------------------20
10...................8----------------------
19-------------------17----------------------
7--------------------14-----------------------


in questo caso abbiamo in prima colonna 5 numeri , ma uno è ripetuto
quindi non consideriamo tale ripetizione del num 19 pertanto
in prima sono 4 numeri
in seconda sono 6
in terza solo 1

la colonna vincente sarà quindi la prima colonna

in effetti al primo colpo esce 16 prima colonna

vediamo tutta la sequenza delle permanenze del 15.2.2009

4.19.26.15.5.10.19.7.20.8.14.17 i primi dodici numeri

16 esce al primo colpo prima colonna

16.23.4.8.5.32.9.30.30.28.11.30.30.30.8.27.5.26.30.23.22.14
21.29.18.13.34.27.11.3.7.8.18.35.22.3.16.31.20.33.23.7.11.15.
2.7.3.3.2.1.19.11.30.2.23.23.3.36.12.35.4.34.13.5.9.10. fine

buon gioco da Numeris titanus

Nessun commento: